Results 1 to 4 of 4

Thread: Rock This House (B.B. King) Line6bassman Bass

  1. #1
    Join Date
    Mar 2010
    Location
    Lacombe, La.
    Posts
    1,807
    Blog Entries
    2

    Default Rock This House (B.B. King) Line6bassman Bass

    Thought I'd put this one here although it's not Tabs its the bass notes and some Time frame directions if you would like to
    learn the song? But had a lot of fun figuring out the bass notes and removing the bass and adding me in the video playing the bass part!! (Note..I'm playing bass in it but not seen). Hope someone gets something out of this?!! Man this one song is a little fast I think, I would of liked this song a little slower I believe but it is what it is...

    Bass notes for song are at the bottom the best way I could put it. By the way, Does anyone know where I can learn how to
    instead of putting the bass notes down like here to be able to put it in tab and written form in PDF format like real sheet music but in simple form? Thanks

    PS. This is what you call a some what private video showing so please don't share it, It's for here only.
    Also I like doing songs that for the most part no one else has done on YouTube and this is one of them!! I think one band has done this on YouTube I think??

    Line6bassman




    Rock This House B.B. King Bass Line Notes

    (G,G,Bb,D,Bb,G) (C,E,G,A,Bb,A,G,E) (G,B,D,E,G,E,D,B)
    0-----------------------------------------------------------------GG 2nd X
    (A,B,C,C# - D,C,B,A) (G,B,D,E – GG,F,DD,B) 2X (G.B,D,E,G,E,D,B)
    --------------------15-----------------------18------------------------23
    (C,E,G,A,BbA,G,E) (G,B,D,E,G,E,D,B) (A,B,C,C#, - D,C,B,A)
    -----------------26----------------------29-------------------------31
    (G,B,D,E – GG,F,DD,B) 2X (G,B,D,E – G,F,D,B – GG,B,D,E,(G,F,E,D)
    ----------------------35-----------------------------------------------40
    (C,E,G,A,Bb,A,G,E) (GG,B,D,E,G,E,B, - AA,B,CC,C#, - D,C,B,A) –
    ------------------------------------------------------------48-------------
    (G,B,D,E – GG,F,D,B) 4X (G,A,Bb,B) 2X (C,D,Eb,E) 2X (G,A,Bb,B)
    -----------------------------------------------------------------------1:02
    (B,A) (B,C,C#,D,C,B,A,G) (GG,B,DD,E,GG,F,DD) (Bb~~~B)
    1:02---------------------------------------------------------1:07
    B.B (Singing part of song)
    2X (G,B,D,E,G,E,D,B) (C,E,G,A,Bb,A,G,E) (G,B,D,E,G,E,D,B)
    1:07----------------------------------------------------------1:17
    Long link-in women
    (A,B,CC,C#,DD,C,BB-A) (G,B,D,E,G,F,D,B) 2X (G,B,D,E,G,E,D,B)
    1:17----------------1:20---------------1:23--------------------1:28
    (C,E,G,A,A#,A,G,E) (G,B,D,E,G,E,D,B) (A,B,C,C#,D,C,B,A,-)
    ------------------------------------------1:34--------------------------------
    We’re going to rock
    (G,B,D,E,GG,F,DD,B) 4X (G,A,Bb,B) 2X (C,D,Eb,E) 2X (G,A,Bb,B)
    -----------------1:40-----------------------------------------------1:50
    (A,B,C,C#,D,C,B,A) (G,B,D,E,G,F,D,B) (G,B,D,E,GG,E,D,B)
    --------------------------------------------1:56-------------------------------
    (G,B,D,E,G,-F,E,D) (C,E,G,A,A#,A,G,E) <--(G,F,E,Eb,D,C,B,A)
    ---------------2:01-----------------------2:03----------------------2:06
    You can set up a table
    (A,B,C,C#,D,C,B,A) (G,B,D,E,GG,F,D,B) 2X (G,B,DD,E,G,E,D,B)
    ----------------2:09---------------------2:12----------------------2:17
    (C,E,G,A,A#,A,G,E) (G,B,D,E,G,E,D,B) (A,B,C,C#,D,C,B,A)
    ---------------2:20-----------------------2:23-------------------------2:25
    (G,B,D,E,G,F,D,B)
    --------------2:28
    4X (G,A,Bb,B) 2X (C,D,Eb,E) 2X (G,A,Bb,B) (A,B,C,C#,D,C,B,A)
    ----------2:33-----------2:36------------2:39------------------2:42
    (G,A,Bb,B)----(G,C,C#,D) 4X (G,A,Bb,B) 2X (C,D,Eb,E)
    ----------------------2:44-----------------2:50-----------------------2:52
    2X (G,A,Bb,B) (A,B,C,C#,D,C,B,A)
    ---------------------------------2:58
    END
    ? (G,D,F,D,G,F,D,G,F,D,G)~~~~~~~~~~G Note. The End is Questionable, I did my own thing?

    PS. Note.. The Time and Seconds are not lining up where I actually put them but I think you can get the idea just move the
    times to the left slightly the ones that seem far right...
    GO LOW!!!STAY HIGH!!!ON BASS THAT IS!!!

  2. #2
    Join Date
    May 2010
    Location
    Alberta, Canada
    Posts
    1,966

    Default

    Nice. I love playing BB's stuff.

    Some of it is pretty quick, but that's part of what makes it fun to master.
    ___________________________________
    Steinberger NXT5 EUB, MTD 535 Fretless, Tobias Killer B6, 72 Fender Precision
    Eden WT500, WTX1000N & WP100, QSC PL230
    Eden D410XLT, D410XST, 215, Fender Bassman 10

  3. #3

    Default

    "Does anyone know where I can learn how to
    instead of putting the bass notes down like here to be able to put it in tab and written form in PDF format like real sheet music but in simple form?"

    I don't know if you would call this simple, but it's free and has lots of support, including a printed guide (which is not free). It has .pdf output, and since it was written for composition, it also has a built in player. It is definitely worth a look.

    https://musescore.org/en

  4. #4
    Join Date
    Mar 2010
    Location
    Lacombe, La.
    Posts
    1,807
    Blog Entries
    2

    Default

    Believe it are not I have that program haven't looked at it in awhile
    I think it was kinda complicated but thanks for reminding me about it maybe my mind might be ready for it now. I'll check it out when I get home. Thanks
    GO LOW!!!STAY HIGH!!!ON BASS THAT IS!!!

Bookmarks

Posting Permissions

  • You may not post new threads
  • You may not post replies
  • You may not post attachments
  • You may not edit your posts
  •